ISO-10303-21;
HEADER;
FILE_DESCRIPTION (( 'STEP AP203' ),
    '1' );
FILE_NAME ('QM-CAHWP-15-550-750-M.STEP',
    '2021-01-05T02:34:54',
    ( '' ),
    ( '' ),
    'SwSTEP 2.0',
    'SolidWorks 2020',
    '' );
FILE_SCHEMA (( 'CONFIG_CONTROL_DESIGN' ));
ENDSEC;

DATA;
#1 = CIRCLE ( 'NONE', #45, 7.500000000000000000 ) ;
#2 = COORDINATED_UNIVERSAL_TIME_OFFSET ( 8, 0, .AHEAD. ) ;
#3 = EDGE_LOOP ( 'NONE', ( #235, #272 ) ) ;
#4 = DIRECTION ( 'NONE',  ( -1.000000000000000000, -0.000000000000000000, -0.000000000000000000 ) ) ;
#5 = ORIENTED_EDGE ( 'NONE', *, *, #151, .T. ) ;
#6 = ORIENTED_EDGE ( 'NONE', *, *, #26, .F. ) ;
#7 = DIRECTION ( 'NONE',  ( 0.000000000000000000, 0.000000000000000000, 1.000000000000000000 ) ) ;
#8 = ORIENTED_EDGE ( 'NONE', *, *, #253, .T. ) ;
#9 = CC_DESIGN_APPROVAL ( #260, ( #230 ) ) ;
#10 = DIRECTION ( 'NONE',  ( 0.000000000000000000, 0.000000000000000000, -1.000000000000000000 ) ) ;
#11 = COORDINATED_UNIVERSAL_TIME_OFFSET ( 8, 0, .AHEAD. ) ;
#12 = ORIENTED_EDGE ( 'NONE', *, *, #81, .T. ) ;
#13 = ORIENTED_EDGE ( 'NONE', *, *, #26, .T. ) ;
#14 = FACE_OUTER_BOUND ( 'NONE', #133, .T. ) ;
#15 = CIRCLE ( 'NONE', #185, 7.499999999999998224 ) ;
#16 = PERSON_AND_ORGANIZATION_ROLE ( 'classification_officer' ) ;
#17 = CYLINDRICAL_SURFACE ( 'NONE', #304, 12.69999999999999929 ) ;
#18 = DIRECTION ( 'NONE',  ( 0.000000000000000000, 0.000000000000000000, -1.000000000000000000 ) ) ;
#19 = CARTESIAN_POINT ( 'NONE',  ( -3.000000000000000000, 0.000000000000000000, 0.000000000000000000 ) ) ;
#20 = AXIS2_PLACEMENT_3D ( 'NONE', #254, #300, #40 ) ;
#21 = CC_DESIGN_DATE_AND_TIME_ASSIGNMENT ( #104, #318, ( #230 ) ) ;
#22 = DIRECTION ( 'NONE',  ( -1.000000000000000000, -0.000000000000000000, -0.000000000000000000 ) ) ;
#23 = ORIENTED_EDGE ( 'NONE', *, *, #142, .F. ) ;
#24 = APPROVAL_PERSON_ORGANIZATION ( #101, #260, #159 ) ;
#25 = VERTEX_POINT ( 'NONE', #135 ) ;
#26 = EDGE_CURVE ( 'NONE', #107, #113, #46, .T. ) ;
#27 =( NAMED_UNIT ( * ) SI_UNIT ( $, .STERADIAN. ) SOLID_ANGLE_UNIT ( ) );
#28 = AXIS2_PLACEMENT_3D ( 'NONE', #171, #118, #278 ) ;
#29 = ORIENTED_EDGE ( 'NONE', *, *, #142, .T. ) ;
#30 = ORIENTED_EDGE ( 'NONE', *, *, #202, .T. ) ;
#31 = EDGE_LOOP ( 'NONE', ( #267, #58 ) ) ;
#32 = ORIENTED_EDGE ( 'NONE', *, *, #177, .T. ) ;
#33 = CARTESIAN_POINT ( 'NONE',  ( -3.000000000000000000, 0.000000000000000000, 0.000000000000000000 ) ) ;
#34 = CARTESIAN_POINT ( 'NONE',  ( 3.000000000000000000, 0.000000000000000000, 0.000000000000000000 ) ) ;
#35 = DIRECTION ( 'NONE',  ( 0.000000000000000000, 0.000000000000000000, 1.000000000000000000 ) ) ;
#36 = FACE_BOUND ( 'NONE', #155, .T. ) ;
#37 = ADVANCED_FACE ( 'NONE', ( #219 ), #85, .F. ) ;
#38 = APPROVAL_DATE_TIME ( #198, #119 ) ;
#39 = CIRCLE ( 'NONE', #322, 12.69999999999999929 ) ;
#40 = DIRECTION ( 'NONE',  ( 0.000000000000000000, 0.000000000000000000, 1.000000000000000000 ) ) ;
#41 = SHAPE_DEFINITION_REPRESENTATION ( #333, #71 ) ;
#42 = DIRECTION ( 'NONE',  ( 0.000000000000000000, 0.000000000000000000, 1.000000000000000000 ) ) ;
#43 = DIRECTION ( 'NONE',  ( -1.000000000000000000, -0.000000000000000000, -0.000000000000000000 ) ) ;
#44 = CARTESIAN_POINT ( 'NONE',  ( -1.614212418857619014, 0.000000000000000000, 0.000000000000000000 ) ) ;
#45 = AXIS2_PLACEMENT_3D ( 'NONE', #147, #66, #196 ) ;
#46 = CIRCLE ( 'NONE', #157, 7.499999999999997335 ) ;
#47 = PERSON_AND_ORGANIZATION_ROLE ( 'creator' ) ;
#48 = PRODUCT_RELATED_PRODUCT_CATEGORY ( 'detail', '', ( #282 ) ) ;
#49 = ORIENTED_EDGE ( 'NONE', *, *, #59, .T. ) ;
#50 = VECTOR ( 'NONE', #290, 1000.000000000000000 ) ;
#51 = AXIS2_PLACEMENT_3D ( 'NONE', #143, #190, #262 ) ;
#52 = ORIENTED_EDGE ( 'NONE', *, *, #324, .F. ) ;
#53 = PERSON_AND_ORGANIZATION_ROLE ( 'design_owner' ) ;
#54 = CARTESIAN_POINT ( 'NONE',  ( -1.614212418857619014, 0.000000000000000000, 7.499999999999998224 ) ) ;
#55 = ORIENTED_EDGE ( 'NONE', *, *, #130, .F. ) ;
#56 = CC_DESIGN_PERSON_AND_ORGANIZATION_ASSIGNMENT ( #247, #67, ( #327 ) ) ;
#57 = DIRECTION ( 'NONE',  ( -1.000000000000000000, -0.000000000000000000, -0.000000000000000000 ) ) ;
#58 = ORIENTED_EDGE ( 'NONE', *, *, #153, .T. ) ;
#59 = EDGE_CURVE ( 'NONE', #206, #165, #15, .T. ) ;
#60 = VERTEX_POINT ( 'NONE', #297 ) ;
#61 = CIRCLE ( 'NONE', #252, 7.499999999999997335 ) ;
#62 = LOCAL_TIME ( 10, 34, 54.00000000000000000, #11 ) ;
#63 = CARTESIAN_POINT ( 'NONE',  ( -3.000000000000000000, 0.000000000000000000, 7.500000000000000000 ) ) ;
#64 = CARTESIAN_POINT ( 'NONE',  ( 3.000000000000000000, 12.69999999999999929, 0.000000000000000000 ) ) ;
#65 = PERSON_AND_ORGANIZATION ( #330, #127 ) ;
#66 = DIRECTION ( 'NONE',  ( -1.000000000000000000, -0.000000000000000000, -0.000000000000000000 ) ) ;
#67 = PERSON_AND_ORGANIZATION_ROLE ( 'creator' ) ;
#68 = DIRECTION ( 'NONE',  ( -1.000000000000000000, -0.000000000000000000, -0.000000000000000000 ) ) ;
#69 = FACE_OUTER_BOUND ( 'NONE', #186, .T. ) ;
#70 = ORIENTED_EDGE ( 'NONE', *, *, #276, .F. ) ;
#71 = ADVANCED_BREP_SHAPE_REPRESENTATION ( 'QM-CAHWP-15-550-750-M', ( #126, #313 ), #279 ) ;
#72 = CIRCLE ( 'NONE', #20, 12.69999999999999929 ) ;
#73 = DATE_AND_TIME ( #305, #301 ) ;
#74 = ORIENTED_EDGE ( 'NONE', *, *, #266, .T. ) ;
#75 = CARTESIAN_POINT ( 'NONE',  ( -1.614212418857619014, 0.000000000000000000, 0.000000000000000000 ) ) ;
#76 = LINE ( 'NONE', #184, #50 ) ;
#77 = CC_DESIGN_PERSON_AND_ORGANIZATION_ASSIGNMENT ( #117, #16, ( #217 ) ) ;
#78 = EDGE_LOOP ( 'NONE', ( #152, #161 ) ) ;
#79 = CARTESIAN_POINT ( 'NONE',  ( 3.000000000000000000, 9.184850993605144000E-16, -7.499999999999997335 ) ) ;
#80 = DIRECTION ( 'NONE',  ( -1.000000000000000000, -0.000000000000000000, -0.000000000000000000 ) ) ;
#81 = EDGE_CURVE ( 'NONE', #165, #206, #261, .T. ) ;
#82 = APPROVAL_STATUS ( 'not_yet_approved' ) ;
#83 = CARTESIAN_POINT ( 'NONE',  ( -0.5000000000000004441, 0.000000000000000000, 0.000000000000000000 ) ) ;
#84 = AXIS2_PLACEMENT_3D ( 'NONE', #64, #200, #248 ) ;
#85 = CYLINDRICAL_SURFACE ( 'NONE', #91, 7.499999999999998224 ) ;
#86 = APPLICATION_CONTEXT ( 'configuration controlled 3d designs of mechanical parts and assemblies' ) ;
#87 = CALENDAR_DATE ( 2021, 5, 1 ) ;
#88 = CARTESIAN_POINT ( 'NONE',  ( -0.5000000000000004441, 0.000000000000000000, 7.499999999999998224 ) ) ;
#89 = PERSON_AND_ORGANIZATION ( #330, #127 ) ;
#90 = FACE_BOUND ( 'NONE', #287, .T. ) ;
#91 = AXIS2_PLACEMENT_3D ( 'NONE', #141, #238, #35 ) ;
#92 = FACE_OUTER_BOUND ( 'NONE', #231, .T. ) ;
#93 = APPROVAL_PERSON_ORGANIZATION ( #89, #257, #222 ) ;
#94 = CARTESIAN_POINT ( 'NONE',  ( 0.5000000000000008882, 0.000000000000000000, 0.000000000000000000 ) ) ;
#95 = CARTESIAN_POINT ( 'NONE',  ( 0.5000000000000008882, 0.000000000000000000, 7.500000000000000000 ) ) ;
#96 = AXIS2_PLACEMENT_3D ( 'NONE', #19, #150, #325 ) ;
#97 = CC_DESIGN_APPROVAL ( #257, ( #217 ) ) ;
#98 = LOCAL_TIME ( 10, 34, 54.00000000000000000, #280 ) ;
#99 = ORIENTED_EDGE ( 'NONE', *, *, #130, .T. ) ;
#100 = CC_DESIGN_PERSON_AND_ORGANIZATION_ASSIGNMENT ( #236, #47, ( #230 ) ) ;
#101 = PERSON_AND_ORGANIZATION ( #330, #127 ) ;
#102 = VECTOR ( 'NONE', #144, 1000.000000000000000 ) ;
#103 = LOCAL_TIME ( 10, 34, 54.00000000000000000, #274 ) ;
#104 = DATE_AND_TIME ( #314, #197 ) ;
#105 = EDGE_LOOP ( 'NONE', ( #134, #6, #309, #32 ) ) ;
#106 = PERSON_AND_ORGANIZATION ( #330, #127 ) ;
#107 = VERTEX_POINT ( 'NONE', #311 ) ;
#108 = VERTEX_POINT ( 'NONE', #63 ) ;
#109 = ORIENTED_EDGE ( 'NONE', *, *, #125, .F. ) ;
#110 = AXIS2_PLACEMENT_3D ( 'NONE', #310, #237, #258 ) ;
#111 = CYLINDRICAL_SURFACE ( 'NONE', #51, 7.499999999999998224 ) ;
#112 = DATE_AND_TIME ( #87, #98 ) ;
#113 = VERTEX_POINT ( 'NONE', #79 ) ;
#114 = LINE ( 'NONE', #167, #115 ) ;
#115 = VECTOR ( 'NONE', #218, 1000.000000000000000 ) ;
#116 = CYLINDRICAL_SURFACE ( 'NONE', #205, 7.499999999999998224 ) ;
#117 = PERSON_AND_ORGANIZATION ( #330, #127 ) ;
#118 = DIRECTION ( 'NONE',  ( -1.000000000000000000, -0.000000000000000000, -0.000000000000000000 ) ) ;
#119 = APPROVAL ( #82, 'UNSPECIFIED' ) ;
#120 = CARTESIAN_POINT ( 'NONE',  ( -1.614212418857619014, 9.184850993605145972E-16, -7.499999999999998224 ) ) ;
#121 = ADVANCED_FACE ( 'NONE', ( #319 ), #111, .F. ) ;
#122 = AXIS2_PLACEMENT_3D ( 'NONE', #94, #225, #284 ) ;
#123 = CARTESIAN_POINT ( 'NONE',  ( 3.000000000000000000, 1.555301434917138433E-15, -12.69999999999999929 ) ) ;
#124 = DIRECTION ( 'NONE',  ( 0.000000000000000000, 0.000000000000000000, -1.000000000000000000 ) ) ;
#125 = EDGE_CURVE ( 'NONE', #107, #212, #114, .T. ) ;
#126 = MANIFOLD_SOLID_BREP ( 'Ðý×', #303 ) ;
#127 = ORGANIZATION ( 'UNSPECIFIED', 'UNSPECIFIED', '' ) ;
#128 = UNCERTAINTY_MEASURE_WITH_UNIT (LENGTH_MEASURE( 1.000000000000000082E-05 ), #181, 'distance_accuracy_value', 'NONE');
#129 = LINE ( 'NONE', #183, #221 ) ;
#130 = EDGE_CURVE ( 'NONE', #25, #108, #295, .T. ) ;
#131 = AXIS2_PLACEMENT_3D ( 'NONE', #302, #323, #124 ) ;
#132 = VERTEX_POINT ( 'NONE', #242 ) ;
#133 = EDGE_LOOP ( 'NONE', ( #23, #234, #30, #180 ) ) ;
#134 = ORIENTED_EDGE ( 'NONE', *, *, #306, .F. ) ;
#135 = CARTESIAN_POINT ( 'NONE',  ( -3.000000000000000000, 9.184850993605147944E-16, -7.500000000000000000 ) ) ;
#136 = FACE_OUTER_BOUND ( 'NONE', #78, .T. ) ;
#137 = DIRECTION ( 'NONE',  ( -1.000000000000000000, -0.000000000000000000, -0.000000000000000000 ) ) ;
#138 = VECTOR ( 'NONE', #265, 1000.000000000000000 ) ;
#139 = CC_DESIGN_APPROVAL ( #119, ( #327 ) ) ;
#140 = APPLICATION_PROTOCOL_DEFINITION ( 'international standard', 'config_control_design', 1994, #86 ) ;
#141 = CARTESIAN_POINT ( 'NONE',  ( -1.614212418857619014, 0.000000000000000000, 0.000000000000000000 ) ) ;
#142 = EDGE_CURVE ( 'NONE', #158, #291, #76, .T. ) ;
#143 = CARTESIAN_POINT ( 'NONE',  ( -1.614212418857619014, 0.000000000000000000, 0.000000000000000000 ) ) ;
#144 = DIRECTION ( 'NONE',  ( -1.000000000000000000, -0.000000000000000000, -0.000000000000000000 ) ) ;
#145 = AXIS2_PLACEMENT_3D ( 'NONE', #75, #57, #289 ) ;
#146 = CALENDAR_DATE ( 2021, 5, 1 ) ;
#147 = CARTESIAN_POINT ( 'NONE',  ( 0.5000000000000008882, 0.000000000000000000, 0.000000000000000000 ) ) ;
#148 = CARTESIAN_POINT ( 'NONE',  ( -3.000000000000000000, 7.500000000000000000, 0.000000000000000000 ) ) ;
#149 = DIRECTION ( 'NONE',  ( 0.000000000000000000, 0.000000000000000000, 1.000000000000000000 ) ) ;
#150 = DIRECTION ( 'NONE',  ( -1.000000000000000000, -0.000000000000000000, -0.000000000000000000 ) ) ;
#151 = EDGE_CURVE ( 'NONE', #165, #108, #269, .T. ) ;
#152 = ORIENTED_EDGE ( 'NONE', *, *, #177, .F. ) ;
#153 = EDGE_CURVE ( 'NONE', #291, #132, #39, .T. ) ;
#154 = CIRCLE ( 'NONE', #122, 7.500000000000000000 ) ;
#155 = EDGE_LOOP ( 'NONE', ( #13, #312 ) ) ;
#156 = DIRECTION ( 'NONE',  ( 1.000000000000000000, 0.000000000000000000, 0.000000000000000000 ) ) ;
#157 = AXIS2_PLACEMENT_3D ( 'NONE', #34, #187, #321 ) ;
#158 = VERTEX_POINT ( 'NONE', #123 ) ;
#159 = APPROVAL_ROLE ( '' ) ;
#160 = DIRECTION ( 'NONE',  ( 0.000000000000000000, 0.000000000000000000, -1.000000000000000000 ) ) ;
#161 = ORIENTED_EDGE ( 'NONE', *, *, #253, .F. ) ;
#162 = PLANE ( 'NONE',  #110 ) ;
#163 = DIRECTION ( 'NONE',  ( 0.000000000000000000, 0.000000000000000000, 1.000000000000000000 ) ) ;
#164 = DIRECTION ( 'NONE',  ( 0.000000000000000000, 0.000000000000000000, 1.000000000000000000 ) ) ;
#165 = VERTEX_POINT ( 'NONE', #88 ) ;
#166 = AXIS2_PLACEMENT_3D ( 'NONE', #148, #249, #18 ) ;
#167 = CARTESIAN_POINT ( 'NONE',  ( -1.614212418857619014, 0.000000000000000000, 7.499999999999998224 ) ) ;
#168 = DATE_TIME_ROLE ( 'classification_date' ) ;
#169 = PLANE ( 'NONE',  #131 ) ;
#170 = PERSON_AND_ORGANIZATION ( #330, #127 ) ;
#171 = CARTESIAN_POINT ( 'NONE',  ( 3.000000000000000000, 0.000000000000000000, 0.000000000000000000 ) ) ;
#172 = FACE_OUTER_BOUND ( 'NONE', #31, .T. ) ;
#173 = CALENDAR_DATE ( 2021, 5, 1 ) ;
#174 = FACE_OUTER_BOUND ( 'NONE', #210, .T. ) ;
#175 = DIRECTION ( 'NONE',  ( 0.000000000000000000, 0.000000000000000000, 1.000000000000000000 ) ) ;
#176 = AXIS2_PLACEMENT_3D ( 'NONE', #283, #43, #149 ) ;
#177 = EDGE_CURVE ( 'NONE', #212, #60, #1, .T. ) ;
#178 = CYLINDRICAL_SURFACE ( 'NONE', #145, 7.499999999999998224 ) ;
#179 = APPLICATION_CONTEXT ( 'configuration controlled 3d designs of mechanical parts and assemblies' ) ;
#180 = ORIENTED_EDGE ( 'NONE', *, *, #153, .F. ) ;
#181 =( LENGTH_UNIT ( ) NAMED_UNIT ( * ) SI_UNIT ( .MILLI., .METRE. ) );
#182 = ORIENTED_EDGE ( 'NONE', *, *, #245, .T. ) ;
#183 = CARTESIAN_POINT ( 'NONE',  ( -1.614212418857619014, 9.184850993605145972E-16, -7.499999999999998224 ) ) ;
#184 = CARTESIAN_POINT ( 'NONE',  ( -1.614212418857619014, 1.555301434917138433E-15, -12.69999999999999929 ) ) ;
#185 = AXIS2_PLACEMENT_3D ( 'NONE', #83, #193, #10 ) ;
#186 = EDGE_LOOP ( 'NONE', ( #12, #74, #99, #216 ) ) ;
#187 = DIRECTION ( 'NONE',  ( -1.000000000000000000, -0.000000000000000000, -0.000000000000000000 ) ) ;
#188 = CARTESIAN_POINT ( 'NONE',  ( 0.000000000000000000, 0.000000000000000000, 0.000000000000000000 ) ) ;
#189 = VERTEX_POINT ( 'NONE', #199 ) ;
#190 = DIRECTION ( 'NONE',  ( -1.000000000000000000, -0.000000000000000000, -0.000000000000000000 ) ) ;
#191 = ADVANCED_FACE ( 'NONE', ( #92 ), #169, .F. ) ;
#192 = AXIS2_PLACEMENT_3D ( 'NONE', #316, #156, #160 ) ;
#193 = DIRECTION ( 'NONE',  ( 1.000000000000000000, 0.000000000000000000, 0.000000000000000000 ) ) ;
#194 = ADVANCED_FACE ( 'NONE', ( #328, #36 ), #201, .F. ) ;
#195 = PERSON_AND_ORGANIZATION_ROLE ( 'design_supplier' ) ;
#196 = DIRECTION ( 'NONE',  ( 0.000000000000000000, 0.000000000000000000, 1.000000000000000000 ) ) ;
#197 = LOCAL_TIME ( 10, 34, 54.00000000000000000, #2 ) ;
#198 = DATE_AND_TIME ( #146, #62 ) ;
#199 = CARTESIAN_POINT ( 'NONE',  ( 3.000000000000000000, 0.000000000000000000, 12.69999999999999929 ) ) ;
#200 = DIRECTION ( 'NONE',  ( -1.000000000000000000, 0.000000000000000000, -0.000000000000000000 ) ) ;
#201 = PLANE ( 'NONE',  #84 ) ;
#202 = EDGE_CURVE ( 'NONE', #189, #132, #223, .T. ) ;
#203 = DESIGN_CONTEXT ( 'detailed design', #179, 'design' ) ;
#204 = COORDINATED_UNIVERSAL_TIME_OFFSET ( 8, 0, .AHEAD. ) ;
#205 = AXIS2_PLACEMENT_3D ( 'NONE', #44, #68, #175 ) ;
#206 = VERTEX_POINT ( 'NONE', #244 ) ;
#207 = DIRECTION ( 'NONE',  ( -1.000000000000000000, -0.000000000000000000, -0.000000000000000000 ) ) ;
#208 = CC_DESIGN_PERSON_AND_ORGANIZATION_ASSIGNMENT ( #170, #195, ( #327 ) ) ;
#209 = ADVANCED_FACE ( 'NONE', ( #14 ), #17, .T. ) ;
#210 = EDGE_LOOP ( 'NONE', ( #182, #29, #259, #220 ) ) ;
#211 = APPROVAL_STATUS ( 'not_yet_approved' ) ;
#212 = VERTEX_POINT ( 'NONE', #95 ) ;
#213 = ADVANCED_FACE ( 'NONE', ( #69 ), #116, .F. ) ;
#214 = ORIENTED_EDGE ( 'NONE', *, *, #276, .T. ) ;
#215 = CARTESIAN_POINT ( 'NONE',  ( -3.000000000000000000, 1.555301434917138433E-15, -12.69999999999999929 ) ) ;
#216 = ORIENTED_EDGE ( 'NONE', *, *, #151, .F. ) ;
#217 = SECURITY_CLASSIFICATION ( '', '', #224 ) ;
#218 = DIRECTION ( 'NONE',  ( -1.000000000000000000, -0.000000000000000000, -0.000000000000000000 ) ) ;
#219 = FACE_OUTER_BOUND ( 'NONE', #105, .T. ) ;
#220 = ORIENTED_EDGE ( 'NONE', *, *, #202, .F. ) ;
#221 = VECTOR ( 'NONE', #207, 1000.000000000000000 ) ;
#222 = APPROVAL_ROLE ( '' ) ;
#223 = LINE ( 'NONE', #298, #102 ) ;
#224 = SECURITY_CLASSIFICATION_LEVEL ( 'unclassified' ) ;
#225 = DIRECTION ( 'NONE',  ( -1.000000000000000000, -0.000000000000000000, -0.000000000000000000 ) ) ;
#226 = DIRECTION ( 'NONE',  ( -1.000000000000000000, -0.000000000000000000, -0.000000000000000000 ) ) ;
#227 = AXIS2_PLACEMENT_3D ( 'NONE', #292, #275, #163 ) ;
#228 = LINE ( 'NONE', #120, #288 ) ;
#229 = CARTESIAN_POINT ( 'NONE',  ( -1.614212418857619014, 0.000000000000000000, 0.000000000000000000 ) ) ;
#230 = PRODUCT_DEFINITION ( 'UNKNOWN', '', #327, #203 ) ;
#231 = EDGE_LOOP ( 'NONE', ( #241, #294 ) ) ;
#232 = CIRCLE ( 'NONE', #96, 12.69999999999999929 ) ;
#233 = MECHANICAL_CONTEXT ( 'NONE', #86, 'mechanical' ) ;
#234 = ORIENTED_EDGE ( 'NONE', *, *, #250, .T. ) ;
#235 = ORIENTED_EDGE ( 'NONE', *, *, #245, .F. ) ;
#236 = PERSON_AND_ORGANIZATION ( #330, #127 ) ;
#237 = DIRECTION ( 'NONE',  ( -1.000000000000000000, 0.000000000000000000, -0.000000000000000000 ) ) ;
#238 = DIRECTION ( 'NONE',  ( -1.000000000000000000, -0.000000000000000000, -0.000000000000000000 ) ) ;
#239 = APPROVAL_PERSON_ORGANIZATION ( #65, #119, #243 ) ;
#240 = APPLICATION_PROTOCOL_DEFINITION ( 'international standard', 'config_control_design', 1994, #179 ) ;
#241 = ORIENTED_EDGE ( 'NONE', *, *, #81, .F. ) ;
#242 = CARTESIAN_POINT ( 'NONE',  ( -3.000000000000000000, 0.000000000000000000, 12.69999999999999929 ) ) ;
#243 = APPROVAL_ROLE ( '' ) ;
#244 = CARTESIAN_POINT ( 'NONE',  ( -0.5000000000000004441, 9.184850993605145972E-16, -7.499999999999998224 ) ) ;
#245 = EDGE_CURVE ( 'NONE', #189, #158, #246, .T. ) ;
#246 = CIRCLE ( 'NONE', #28, 12.69999999999999929 ) ;
#247 = PERSON_AND_ORGANIZATION ( #330, #127 ) ;
#248 = DIRECTION ( 'NONE',  ( -0.000000000000000000, 0.000000000000000000, 1.000000000000000000 ) ) ;
#249 = DIRECTION ( 'NONE',  ( 1.000000000000000000, 0.000000000000000000, 0.000000000000000000 ) ) ;
#250 = EDGE_CURVE ( 'NONE', #158, #189, #72, .T. ) ;
#251 = CARTESIAN_POINT ( 'NONE',  ( -3.000000000000000000, 0.000000000000000000, 0.000000000000000000 ) ) ;
#252 = AXIS2_PLACEMENT_3D ( 'NONE', #293, #4, #308 ) ;
#253 = EDGE_CURVE ( 'NONE', #60, #212, #154, .T. ) ;
#254 = CARTESIAN_POINT ( 'NONE',  ( 3.000000000000000000, 0.000000000000000000, 0.000000000000000000 ) ) ;
#255 = EDGE_CURVE ( 'NONE', #132, #291, #232, .T. ) ;
#256 = ADVANCED_FACE ( 'NONE', ( #90, #172 ), #281, .F. ) ;
#257 = APPROVAL ( #299, 'UNSPECIFIED' ) ;
#258 = DIRECTION ( 'NONE',  ( -0.000000000000000000, 0.000000000000000000, 1.000000000000000000 ) ) ;
#259 = ORIENTED_EDGE ( 'NONE', *, *, #255, .F. ) ;
#260 = APPROVAL ( #211, 'UNSPECIFIED' ) ;
#261 = CIRCLE ( 'NONE', #192, 7.499999999999998224 ) ;
#262 = DIRECTION ( 'NONE',  ( 0.000000000000000000, 0.000000000000000000, 1.000000000000000000 ) ) ;
#263 = EDGE_LOOP ( 'NONE', ( #307, #49, #5, #214 ) ) ;
#264 = APPROVAL_DATE_TIME ( #73, #260 ) ;
#265 = DIRECTION ( 'NONE',  ( -1.000000000000000000, -0.000000000000000000, -0.000000000000000000 ) ) ;
#266 = EDGE_CURVE ( 'NONE', #206, #25, #228, .T. ) ;
#267 = ORIENTED_EDGE ( 'NONE', *, *, #255, .T. ) ;
#268 = FACE_OUTER_BOUND ( 'NONE', #317, .T. ) ;
#269 = LINE ( 'NONE', #54, #138 ) ;
#270 = ADVANCED_FACE ( 'NONE', ( #174 ), #326, .T. ) ;
#271 = DIRECTION ( 'NONE',  ( 1.000000000000000000, 0.000000000000000000, 0.000000000000000000 ) ) ;
#272 = ORIENTED_EDGE ( 'NONE', *, *, #250, .F. ) ;
#273 = AXIS2_PLACEMENT_3D ( 'NONE', #251, #80, #7 ) ;
#274 = COORDINATED_UNIVERSAL_TIME_OFFSET ( 8, 0, .AHEAD. ) ;
#275 = DIRECTION ( 'NONE',  ( -1.000000000000000000, -0.000000000000000000, -0.000000000000000000 ) ) ;
#276 = EDGE_CURVE ( 'NONE', #108, #25, #332, .T. ) ;
#277 = DIRECTION ( 'NONE',  ( 0.000000000000000000, 0.000000000000000000, 1.000000000000000000 ) ) ;
#278 = DIRECTION ( 'NONE',  ( 0.000000000000000000, 0.000000000000000000, 1.000000000000000000 ) ) ;
#279 =( GEOMETRIC_REPRESENTATION_CONTEXT ( 3 ) GLOBAL_UNCERTAINTY_ASSIGNED_CONTEXT ( ( #128 ) ) GLOBAL_UNIT_ASSIGNED_CONTEXT ( ( #181, #285, #27 ) ) REPRESENTATION_CONTEXT ( 'NONE', 'WORKASPACE' ) );
#280 = COORDINATED_UNIVERSAL_TIME_OFFSET ( 8, 0, .AHEAD. ) ;
#281 = PLANE ( 'NONE',  #166 ) ;
#282 = PRODUCT ( 'QM-CAHWP-15-550-750-M', 'QM-CAHWP-15-550-750-M', '', ( #233 ) ) ;
#283 = CARTESIAN_POINT ( 'NONE',  ( -1.614212418857619014, 0.000000000000000000, 0.000000000000000000 ) ) ;
#284 = DIRECTION ( 'NONE',  ( 0.000000000000000000, 0.000000000000000000, 1.000000000000000000 ) ) ;
#285 =( NAMED_UNIT ( * ) PLANE_ANGLE_UNIT ( ) SI_UNIT ( $, .RADIAN. ) );
#286 = CC_DESIGN_PERSON_AND_ORGANIZATION_ASSIGNMENT ( #106, #53, ( #282 ) ) ;
#287 = EDGE_LOOP ( 'NONE', ( #70, #55 ) ) ;
#288 = VECTOR ( 'NONE', #226, 1000.000000000000000 ) ;
#289 = DIRECTION ( 'NONE',  ( 0.000000000000000000, 0.000000000000000000, 1.000000000000000000 ) ) ;
#290 = DIRECTION ( 'NONE',  ( -1.000000000000000000, -0.000000000000000000, -0.000000000000000000 ) ) ;
#291 = VERTEX_POINT ( 'NONE', #215 ) ;
#292 = CARTESIAN_POINT ( 'NONE',  ( -3.000000000000000000, 0.000000000000000000, 0.000000000000000000 ) ) ;
#293 = CARTESIAN_POINT ( 'NONE',  ( 3.000000000000000000, 0.000000000000000000, 0.000000000000000000 ) ) ;
#294 = ORIENTED_EDGE ( 'NONE', *, *, #59, .F. ) ;
#295 = CIRCLE ( 'NONE', #227, 7.500000000000000000 ) ;
#296 = DATE_AND_TIME ( #173, #103 ) ;
#297 = CARTESIAN_POINT ( 'NONE',  ( 0.5000000000000008882, 9.184850993605147944E-16, -7.500000000000000000 ) ) ;
#298 = CARTESIAN_POINT ( 'NONE',  ( -1.614212418857619014, 0.000000000000000000, 12.69999999999999929 ) ) ;
#299 = APPROVAL_STATUS ( 'not_yet_approved' ) ;
#300 = DIRECTION ( 'NONE',  ( -1.000000000000000000, -0.000000000000000000, -0.000000000000000000 ) ) ;
#301 = LOCAL_TIME ( 10, 34, 54.00000000000000000, #204 ) ;
#302 = CARTESIAN_POINT ( 'NONE',  ( -0.5000000000000004441, 7.500000000000000000, 0.000000000000000000 ) ) ;
#303 = CLOSED_SHELL ( 'NONE', ( #270, #213, #335, #331, #37, #121, #256, #209, #194, #191 ) ) ;
#304 = AXIS2_PLACEMENT_3D ( 'NONE', #229, #22, #42 ) ;
#305 = CALENDAR_DATE ( 2021, 5, 1 ) ;
#306 = EDGE_CURVE ( 'NONE', #113, #60, #129, .T. ) ;
#307 = ORIENTED_EDGE ( 'NONE', *, *, #266, .F. ) ;
#308 = DIRECTION ( 'NONE',  ( 0.000000000000000000, 0.000000000000000000, 1.000000000000000000 ) ) ;
#309 = ORIENTED_EDGE ( 'NONE', *, *, #125, .T. ) ;
#310 = CARTESIAN_POINT ( 'NONE',  ( 0.5000000000000004441, 7.500000000000000000, 0.000000000000000000 ) ) ;
#311 = CARTESIAN_POINT ( 'NONE',  ( 3.000000000000000000, 0.000000000000000000, 7.499999999999997335 ) ) ;
#312 = ORIENTED_EDGE ( 'NONE', *, *, #324, .T. ) ;
#313 = AXIS2_PLACEMENT_3D ( 'NONE', #188, #164, #271 ) ;
#314 = CALENDAR_DATE ( 2021, 5, 1 ) ;
#315 = CC_DESIGN_SECURITY_CLASSIFICATION ( #217, ( #327 ) ) ;
#316 = CARTESIAN_POINT ( 'NONE',  ( -0.5000000000000004441, 0.000000000000000000, 0.000000000000000000 ) ) ;
#317 = EDGE_LOOP ( 'NONE', ( #52, #334, #8, #109 ) ) ;
#318 = DATE_TIME_ROLE ( 'creation_date' ) ;
#319 = FACE_OUTER_BOUND ( 'NONE', #263, .T. ) ;
#320 = APPROVAL_DATE_TIME ( #112, #257 ) ;
#321 = DIRECTION ( 'NONE',  ( 0.000000000000000000, 0.000000000000000000, 1.000000000000000000 ) ) ;
#322 = AXIS2_PLACEMENT_3D ( 'NONE', #33, #137, #277 ) ;
#323 = DIRECTION ( 'NONE',  ( 1.000000000000000000, 0.000000000000000000, 0.000000000000000000 ) ) ;
#324 = EDGE_CURVE ( 'NONE', #113, #107, #61, .T. ) ;
#325 = DIRECTION ( 'NONE',  ( 0.000000000000000000, 0.000000000000000000, 1.000000000000000000 ) ) ;
#326 = CYLINDRICAL_SURFACE ( 'NONE', #176, 12.69999999999999929 ) ;
#327 = PRODUCT_DEFINITION_FORMATION_WITH_SPECIFIED_SOURCE ( 'ANY', '', #282, .NOT_KNOWN. ) ;
#328 = FACE_OUTER_BOUND ( 'NONE', #3, .T. ) ;
#329 = CC_DESIGN_DATE_AND_TIME_ASSIGNMENT ( #296, #168, ( #217 ) ) ;
#330 = PERSON ( 'UNSPECIFIED', 'UNSPECIFIED', 'UNSPECIFIED', ('UNSPECIFIED'), ('UNSPECIFIED'), ('UNSPECIFIED') ) ;
#331 = ADVANCED_FACE ( 'NONE', ( #136 ), #162, .F. ) ;
#332 = CIRCLE ( 'NONE', #273, 7.500000000000000000 ) ;
#333 = PRODUCT_DEFINITION_SHAPE ( 'NONE', 'NONE',  #230 ) ;
#334 = ORIENTED_EDGE ( 'NONE', *, *, #306, .T. ) ;
#335 = ADVANCED_FACE ( 'NONE', ( #268 ), #178, .F. ) ;
ENDSEC;
END-ISO-10303-21;
